Chico Science & Nação Zumbi

Chico Science & Nação Zumbi

Um Satélite na Cabeça

ouvir : conectando
aleatório
repetir
sem intro
Para adicionar mais músicas, clique em adicionar meu canal e depois em "Adicionar ao player"
  • traduzir letra
  • imprimir letra
  • corrigir
  • ajuda

riff1
e|-------------------------------|
B|-------------------------8---8-|
G|----------------------7p9-7p9--|
D|-7--7--7--7-7--7--7------------|
A|-7--7--7--7-7--7--7------------|
E|-5--5--5--5-5--5--5------------|
`---[abafando]---´

* ouvindo a música, dá pra ter uma noção de como tocar o riff

(riff1)
Como um pássaro o tempo voa
A procura do exato momento
Onde o que você pode fazer fosse agora

(riff1)
Com as roupas sujas de lama
Porque o barro arrudeia o mundo
E a TV não tem olhos pra ver

(riff1)
Eu sou como aquele boneco
Que apareceu no dia na fogueira
E controla seu próprio satélite

(riff1)
Andando por cima da terra
Conquistando o seu próprio espaço
É onde você pode estar agora

Ih!

riff2 (2X) riff2a
e|----------------|------------------|
B|----------------|------------------|
G|----------------|------------------|
D|-7-7-7--7-5-----|-7-7-7--7-5---5~--|
A|-7-7-7------7-5-|-7-7-7------7-----|
E|-5-5-5----------|-5-5-5------------|

riff3 (baixo)
G|--------------------|
D|--------------------|
A|--------------------|
E|-5-5-5-55-55-5---9~-|

(repete 1x)

riff final
e|--------------------|
B|--------------------|
G|--------------------|
D|-7--7--7--7-7--7--7-|
A|-7--7--7--7-7--7--7-|


músicas | letra

Facebook Google Plus

Denunciar conteúdo inapropriado

Notificar erro
Selecione abaixo o tipo de erro da música


código incorreto, tente novamente(trocar imagem)
você deve selecionar uma das três opções antes de enviar 
Minha playlist
Colocar texto bem aqui pro caboclo ficar feliz e voltar pra casa
Minha playlist
Crie um nome para sua playlist nova ou substitua as músicas de uma playlist existente
Dê nome para sua playlist
substitua as músicas da playlist
ou
 
Atualizar Video
Você pode contribuir e corrigir o video desta música
Adicione a url correta do vídeo do YouTube
Ex.: https://www.youtube.com/watch?v=EDwb9jOVRtU
ARTISTA:

MÚSICA: